free hit counters

Duman - Senden Daha Güzel

Duman
Orj. Ton : -
Ritim : -
Metronom : -

Senden Daha Güzel

Tab ekrana sığmıyorsa sağa doğru kaydırın

E|-----------------|-7-5---------|-----------------|-0---0-------|
B|-5-5-5-5-7h8-7b8-|-----8-7-7b8-|-5-5-5-5-7h8-7b8-|---4---4-----|
G|-----------------|-------------|-----------------|---------5b6-|
D|-----------------|-------------|-----------------|-------------|
A|-----------------|-------------|-----------------|-------------|
E|-----------------|-------------|-----------------|-------------|



E|-----------------|-7-5---------|-----------------|-0---0-----|
B|-5-5-5-5-7h8-7b8-|-----8-7-7b8-|-5-5-5-5-7h8-7b8-|---4---4---|
G|-----------------|-------------|-----------------|---------5-|
D|-----------------|-------------|-----------------|-----------|
A|-----------------|-------------|-----------------|-----------|
E|-----------------|-------------|-----------------|-----------|



E|-0---0-----|-----------|-7-5-7-5---|-5h7-7-8-7-7-|-11-12-14-
B|---4---4---|-8-7-8-7-5-|---------8-|-------------|----------
G|---------5-|-----------|-----------|-------------|----------
D|-----------|-----------|-----------|-------------|----------
A|-----------|-----------|-----------|-------------|----------
E|-----------|-----------|-----------|-------------|----------

Ekleyen : TemreG

  • Şarkıyı Dinle - Player şarkıyı çalmıyorsa Youtube üzerinden dinlemek için tıklayınız

  • 1 Yorum
    Sebastian 04.04.2014 - 20:25:40

    Teşekkürler Emre Bey. Devamını bekliyoruz.. :)

    Yorum Yap

    E-mail adresiniz gösterilmeyecektir. Lütfen * alanlarını boş geçmeyiniz.
    Adınız *
    Mail Adresiniz *

    Web Site

    Yorumunuz *