free hit counters

Duman - Yürek

Duman
Orj. Ton : Em (Mi Minör)
Ritim : 4/4
Metronom : 128

Yürek

Tab ekrana sığmıyorsa sağa doğru kaydırın

E|----------------------------------------------------------------------------
B|----------------------------------------------------------------------------
G|----------------------------------------------------------------------------
D|---------------7--9--8--9--10--9--5--7--5--7--9--7--4--5--4--5--7--5--2--4--
A|-----7--9--10---------------------------------------------------------------
E|--0-------------------------------------------------------------------------


E|----------------------------------------------------------------------------
B|----------------------------------------------------------------------------
G|----------------------------------------------------------------------------
D|---------------7--9--8--9--10--9--5--7--5--7--9--7--4--5--4--5--7--5--4--2--
A|-----7--9--10---------------------------------------------------------------
E|--0-------------------------------------------------------------------------

Ekleyen : TemreG

  • Şarkıyı Dinle - Player şarkıyı çalmıyorsa Youtube üzerinden dinlemek için tıklayınız

  • Henüz yorum yapılmamış
    Yorum Yap

    E-mail adresiniz gösterilmeyecektir. Lütfen * alanlarını boş geçmeyiniz.
    Adınız *
    Mail Adresiniz *

    Web Site

    Yorumunuz *