free hit counters

Teoman - Gemiler

Teoman
Orj. Ton : -
Ritim : -
Metronom : -

Gemiler

Tab ekrana sığmıyorsa sağa doğru kaydırın

e -------------------------------------------------------------
B -1-0-0------0-1--0-----------------------------0-------------
G -------2--2--------2-0----0-2--0--------0-2-0----2-0--0-2-0--
D ------------------------3--------3--3-3----------------------
A -------------------------------------------------------------



e -------------------------------------------------------------
B -1-0-0------0-1-3-0-----------------------------0------------
G -------2--2---------2-0----0-2--0--------0-2-0----2-0--0-2-0-
D -------------------------3--------3--3-3---------------------
A -------------------------------------------------------------

Ekleyen : temreg

  • Şarkıyı Dinle - Player şarkıyı çalmıyorsa Youtube üzerinden dinlemek için tıklayınız

  • Henüz yorum yapılmamış
    Yorum Yap

    E-mail adresiniz gösterilmeyecektir. Lütfen * alanlarını boş geçmeyiniz.
    Adınız *
    Mail Adresiniz *

    Web Site

    Yorumunuz *