free hit counters

Mabel Matiz - Bir Hadise Var

Mabel Matiz
Orj. Ton : C#m (Do Diyez Minör)
Ritim : 4/4
Metronom : 100

Bir Hadise Var

Tab ekrana sığmıyorsa sağa doğru kaydırın

Gitar giriş melodisi :

1. Kısım :
E|--------------------------------------------------------------------------------
B|--------------------------------2h4p2p0--2--4--5--4--5--4--2--2--2h4p2p0--------
G|--------------------1--1--2--4--------------------------------------------2--1--
D|--------------2--4--------------------------------------------------------------
A|--4-----------------------------------------------------------------------------
E|--------------------------------------------------------------------------------


2. Kısım :
E|-----------------------------------------------------------------------
B|--------------------2h4p2p0--2--4--5--4--5--4--2--2--2h4p2p0--------2--
G|--------1--1--2--4--------------------------------------------2--1-----
D|--2--4-----------------------------------------------------------------
A|-----------------------------------------------------------------------
E|-----------------------------------------------------------------------

Ekleyen : thewalkingdead

  • Şarkıyı Dinle - Player şarkıyı çalmıyorsa Youtube üzerinden dinlemek için tıklayınız

  • Henüz yorum yapılmamış
    Yorum Yap

    E-mail adresiniz gösterilmeyecektir. Lütfen * alanlarını boş geçmeyiniz.
    Adınız *
    Mail Adresiniz *

    Web Site

    Yorumunuz *