free hit counters

Duman - Çile Bülbülüm

Duman
Orj. Ton : -
Ritim : -
Metronom : -

Çile Bülbülüm

Tab ekrana sığmıyorsa sağa doğru kaydırın

E  ---------------------------------------------------------------
B  -----5-----5----5-6-5---------------8---7-8-7-8---10-6-5-------
G  --7----7----------------7-5-4-2-0------------------------------
D  ---------------------------------------------------------------
A  ---------------------------------------------------------------
E  ---------------------------------------------------------------

E  ---------------------------------------------------------------
B  --5-6----5-------------------5---------------------------------
G  -------7-------7—5-7-5-7---------------------------------------
D  ---------------------------------------------------------------
A  ---------------------------------------------------------------
E  ---------------------------------------------------------------

E  ---------------------------------------------------------------
B  -----5-----5----5-6-5------------------8-7-8----10-6-5---------
G  --7----7----------------7-5-4-2-0------------------------------
D  --------------------------------------4------------------------
A  ---------------------------------------------------------------
E  ---------------------------------------------------------------

E  ---------------------------------------------------------------
B  --5-6----5-----------------------------------------------------
G  -------7-------------------------------------------------------
D  ---------------------------------------------------------------
A  ---------------------------------------------------------------
E  ---------------------------------------------------------------

Ekleyen : thewalkingdead

Henüz yorum yapılmamış
Yorum Yap

E-mail adresiniz gösterilmeyecektir. Lütfen * alanlarını boş geçmeyiniz.
Adınız *
Mail Adresiniz *

Web Site

Yorumunuz *