free hit counters

Barış Manço - Anlıyorsun Değil Mi

Barış Manço
Orj. Ton : -
Ritim : -
Metronom : -

Anlıyorsun Değil Mi

Tab ekrana sığmıyorsa sağa doğru kaydırın

E------------------------------------------------------
B---------------0-0-1-----1--0------0--0---------------
G---------2--2------------------2---------0--0--2------
D---2--2-----------------------------------------------
A------------------------------------------------------
E------------------------------------------------------


E------------------------------------------------------
B--------------------------------------------0---------
G------------------------------------2-2-1------2------
D---2--2--3--3--3--2--0--2-----2-2---------------------
A------------------------------------------------------
E------------------------------------------------------


E------------------------------------------------------
B---------------0-0-1-----1--0------0--0---------------
G---------2--2------------------2---------0--0--2------
D---2--2-----------------------------------------------
A------------------------------------------------------
E------------------------------------------------------


E------------------------------------------------------
B--------------------------------------------0---------
G------------------------------------2-2-1------2------
D---2--2--3--3--3--2--0--2-----2-2---------------------
A------------------------------------------------------
E------------------------------------------------------


E------------------------------------------------------
B------------------------------------------------------
G--2-1-2-1--------2--1---------2-1-2-1--------2-1------
D-----------3--3--------3--2------------3--3-------3--2
A------------------------------------------------------
E------------------------------------------------------


E------------------------------------------------------
B------------------------------------1--0--------------
G--------------2--1-------------------------2--1--2----
D--2--2--3--3--------3--2----2--2----------------------
A------------------------------------------------------
E------------------------------------------------------


E-----0--1--0-------0-----------0----------------------
B--3------------3-------1---3------3--1--0-------------
G--------------------------------------------2---------
D------------------------------------------------------
A------------------------------------------------------
E------------------------------------------------------



E-----0--1--0-------0-----------0----------------------
B--3------------3-------1---3------3--1--0-------------
G--------------------------------------------2---------
D------------------------------------------------------
A------------------------------------------------------
E------------------------------------------------------

Ekleyen : thewalkingdead

Henüz yorum yapılmamış
Yorum Yap

E-mail adresiniz gösterilmeyecektir. Lütfen * alanlarını boş geçmeyiniz.
Adınız *
Mail Adresiniz *

Web Site

Yorumunuz *