free hit counters

Teoman - Serseri

Teoman
Orj. Ton : F#m (Fa Diyez Minör)
Ritim : 4/4
Metronom : 75

Serseri

Tab ekrana sığmıyorsa sağa doğru kaydırın

Giriş Gitar Melodisi

E|-----------------------|-----------------------|-----------------|
B|-----------------------|-5---------------------|-----------------|
G|-6-4---4---------------|---7-6-7-6-4-6-4---4---|-6---4-----------|
D|-----7---7-6-7-6-4-6-4-|-----------------7---7-|---7---7-7-4-6-4-|
A|-----------------------|-----------------------|-----------------|
E|-----------------------|-----------------------|-----------------|



E|---------------------------|
B|-5-------------------------|
G|---7-6-7-6---4---4-4\6-----|
D|-----------7---7-------7/4-|
A|---------------------------|
E|---------------------------|

 

Ekleyen : thewalkingdead

  • Şarkıyı Dinle - Player şarkıyı çalmıyorsa Youtube üzerinden dinlemek için tıklayınız

  • Henüz yorum yapılmamış
    Yorum Yap

    E-mail adresiniz gösterilmeyecektir. Lütfen * alanlarını boş geçmeyiniz.
    Adınız *
    Mail Adresiniz *

    Web Site

    Yorumunuz *