free hit counters

Hababam Sınıfı - Hababam Sınıfı

Hababam Sınıfı
Orj. Ton : -
Ritim : -
Metronom : -

Hababam Sınıfı

Tab ekrana sığmıyorsa sağa doğru kaydırın

E|12-10-12------------------------------------------------------------------
B|----------12-10-12---9-----9--9-------------------------------------------
G|----------------------- 10-------10-9--|-10-10-9--------10-9--9^^^9-------
D|-------------------------------------------------12-12--------------------
A|--------------------------------------------------------------------------
E|--------------------------------------------------------------------------

E|12-10-12---------------------------------------------------12-12----------
B|----------12-10-12----9-----9--9---------------9----12--------------------
G|------------------------10-------10-9--|-9--------------------------------
D|--------------------------------------------------------------------------
A|--------------------------------------------------------------------------
E|--------------------------------------------------------------------------

E|12----7------8-10-8-7-----------------------------------------------------
B|-----------------------10-----9-9------9-9-10---12-|--------9-10-12-------
G|-----------------------------------10-----------------9-10----------------
D|--------------------------------------------------------------------------
A|--------------------------------------------------------------------------
E|--------------------------------------------------------------------------

E|12----7-----8-10-8-7------------------------------------------------------
B|----------------------10--|--9-9---------------------12-10-9--------------
G|-----------------------------------10-10-------9----------------10-9------
D|------------------------------------------12------------------------------
A|--------------------------------------------------------------------------
E|--------------------------------------------------------------------------

E|--------------------------------------------------------------------------
B|-------------------------9-10-9-10-12-|----------------------9-10-9-10-12-
G|10-10-9----------10-9-|---------------|-10-10-9---------10-9|-------------
D|---------12-12----------------------------------12-12---------------------
A|--------------------------------------------------------------------------
E|--------------------------------------------------------------------------

E|--------------------------------------------------------------------------
B|10-10-9---------10-9-|-9-10-9-10-12-|-12-12-10---9-9-12----10^^^^^10--|---
G|---------10-10------------------------------------------------------------
D|--------------------------------------------------------------------------
A|--------------------------------------------------------------------------
E|--------------------------------------------------------------------------

E|--------8--11--12---7-8-7-------------------------------------------------
B|10-12-----------------------10-9------------------------------------------
G|-----------------------------------10-9---9^^^^^9-------------------------
D|--------------------------------------------------------------------------
A|--------------------------------------------------------------------------
E|--------------------------------------------------------------------------

E|----------------------7-8-7-----------------------------------------------
B|-----------------------------10-----9-------------------------------------
G|10-10-9---------10------------------------10----9^^^^^^9------------------
D|---------12-12------------------------------------------------------------
A|--------------------------------------------------------------------------
E|--------------------------------------------------------------------------


Ekleyen : thewalkingdead

1 Yorum
ömer 10.11.2016 - 22:43:43

E|-0----------------------------------------------------|-0--------------------------------
B|---0---1-3-1--0---------------------0------------0----|---0--1-3-1--0--------------------
G|----------------2--1-1-----1-1--2-----------1-2-------|---------------2--1-1-------------
D|------------------------3--------------2-3------------|-----------------------3-3-0-2----
___________________________________________________________________________________________
E|-----------------------------------------BİTİŞ-------------------------------------------
B|-----------------------------------------BİTİŞ-------------------------------------------
G|-2-1-------------------------------------BİTİŞ-------------------------------------------
D|-------3-2-------------------------------BİTİŞ-------------------------------------------

Yorum Yap

E-mail adresiniz gösterilmeyecektir. Lütfen * alanlarını boş geçmeyiniz.
Adınız *
Mail Adresiniz *

Web Site

Yorumunuz *