free hit counters

Pink Floyd - Wish You Were Here

Pink Floyd
Orj. Ton : G (Sol Majör)
Ritim : 4/4
Metronom : 60

Wish You Were Here

Tab ekrana sığmıyorsa sağa doğru kaydırın

/ = means slide       p = means pull off      h = means hammer     b = means bend


Intro-

1---------------------3-------------------3
2---------------------3-------------------3
3---------------------0-------0-----------0
4-------------0--2----0----2-----2--------0          Do it twice
5------0h2------------2-------------------2
6---3-----------------x-------------------3


1---------------------3---------------------------------3
2---------------------3---------------------------------3
3---------------------0---------------------------------2
4-------------0--2----0------2-----0--------------------2   Do it Twice
5------0h2------------2------------------2-------0------0
6---3-----------------x---------------------------------0


1------3
2------3
3------0
4------0         Guitar 1 continues that until the solo ends
5------2
6------3




Solo (Guitar Two)

1----------------------------------------------------------
2----------3---5--------3----------------------------------
3-----2/4-----------4--------4----2---0--------------------
4------------------------------------------0---------0---0-
5-----------------------------------------------1/2--------
6----------------------------------------------------------


1----3/5/3-------------------------------------------------
2----3/5/3----3/5/3----3----3/5/3--------------------------
3-------------2/4/2----0----2/4/2---2p0----2/4-------------
4------------------------------------------3/5-------------
5----------------------------------------------------------
6----------------------------------------------------------

1---------------------------------------------------------------------
2----------3--------5----5b---5----3--------------3-----5-------------
3----2/4-------4----------------------2----4b----------------4b-----2-
4---------------------------------------------------------------------
5---------------------------------------------------------------------
6---------------------------------------------------------------------


1---------------------------------------------------------------------
2---------3---------5-----5b-----5------3-----------------------------
3----2/4------4-----------------------------2----4b-------------------
4---------------------------------------------------------------------
5---------------------------------------------------------------------
6---------------------------------------------------------------------


The solo ends



1-----3-----
2-----3-----
3-----0-----
4-----0-----
5-----2-----
6-----3-----



C                       D                     AM                   G

1--------0----------|--------2----------|-----------0---------|---------3---------
2--------1----------|--------3----------|-----------1---------|---------0---------
3--------0----------|--------2----------|-----------2---------|---------0---------
4--------2----------|--------0----------|-----------2---------|---------0---------
5--------3----------|--------0----------|-----------0---------|---------2---------
6--------0----------|--------0----------|-----------0---------|---------3---------



C                           D 
So, so you think you can tell

AM
Heaven from Hell

G 
Blue Skies from pain

D 
Can you tell a green field

C 

AM
A smile from a veil

G 
So you think you can tell

C 
Did they get you to trade

D 
Your heros for ghosts

AM
Hot Ashes for trees

G 
Hot air for a cool breeze

D 
Cold comfort for change

C 
Did you exchange

AM
A walk on part in the war

G 
For a lead role in a cage



Than it's another solo but I didn't learned it so I'll take a solo from another tab of that song



Solo 2  (Guitar 2)

The solo is played on the intro

--------10-10-------10-10---12-10-10----------------------------
---10/12-------10/12-----------------12-------------------------

---------10-10-10-12-10-----------------------------------------
---10/12--------------------12p10p8-----------------------------
-----------------------------------7-7---9-7--------------------
---------------------------------------9------------------------

----------------10-10-10-----------12---------------------------
-----8-10-10/12---------10--12/14----14p12p10-------------------
---9------------------------------------------------------------
G 
---------10---------------------------12------------------------
---10/12----12p10p8-10-12-12-8--12/14-----14p12p10--8-----------


C                              D 
How I wish, how I wish you were here

Am                                G 
We're just two lost souls swimming in a fish bowl

D 
Year after year.

C 
Running over the same old ground.

AM
What have we found he same old fears

G 
Wish you were here

Ekleyen : thewalkingdead

  • Şarkıyı Dinle - Player şarkıyı çalmıyorsa Youtube üzerinden dinlemek için tıklayınız

  • Henüz yorum yapılmamış
    Yorum Yap

    E-mail adresiniz gösterilmeyecektir. Lütfen * alanlarını boş geçmeyiniz.
    Adınız *
    Mail Adresiniz *

    Web Site

    Yorumunuz *