free hit counters

Kurban - Sarı Çizmeli Mehmet Ağa

Kurban
Orj. Ton : -
Ritim : -
Metronom : -

Sarı Çizmeli Mehmet Ağa

Tab ekrana sığmıyorsa sağa doğru kaydırın

E||------|------|------|------|-------------------|--------------------|
B||------|------|------|------|-------------------|--------------------|
G||------|------|------|------|-------------------|--------------------|
D||------|------|------|------|----------------2--|--4--------------2--|
A||------|------|------|------|----------------2--|--4--------------2--|
E||------|------|------|------|----------------0--|--2--------------0--|
                                                           
--------------------|--------------------|--------------------|
--------------------|--------------------|--------------------|
--------------------|--------------------|--------------------|
--4--------------2--|--4--------------2--|--4--------------2--|
--4--------------2--|--4--------------2--|--4--------------2--|
--2--------------0--|--2--------------0--|--2--------------0--|
 Solo:                                                                     
----------------------------------|----------------------------------|
----------------------------------|----------------------------------|
----------------------------------|----------------------------------|
---------------9---9--------------|---------------9---9--------------|
--9--10-9-12-9---9---12-10-9-9----|--9--10-9-12-9---9---12-10-9-9----|
----------------------------------|----------------------------------|
                                                                           
---------------------------------------|----------------------------------|
---------------------------------------|----------------------------------|
------9--------------------------------|----------------------------------|
--------12-12-11-11-9----9-9-----------|---------------9---9--------------|
--9-9-----------------12-----12-10--9--|--9--10-9-12-9---9---12-10-9-9----|
---------------------------------------|----------------------------------|
                                                                      
----------------------------------|----------------------------------|
----------------------------------|----------------------------------|
----------------------------------|----------------------------------|
---------------9---9--------------|---------------9---9--------------|
--9--10-9-12-9---9---12-10-9-9----|--9--10-9-12-9---9---12-10-9-9----|
----------------------------------|----------------------------------|
                                                              
---------------------------------------|---------------------|
---------------------------------------|---------------------|
------9--------------------------------|---------------------|
--------12-12-11-11-9----9-9-----------|---------------------|
--9-9-----------------12-----12-10--9--|--9/-------21--------|
---------------------------------------|---------------------|
                                                          
----------------------------|----------------------------|
----------------------------|----------------------------|
----------------------------|----------------------------|
--2--4--x-x-4--2--2--4--x-x-|--2--4--x-x-4--2--2--4--x-x-|
--2--4--x-x-4--2--2--4--x-x-|--2--4--x-x-4--2--2--4--x-x-|
--0--2--x-x-2--0--0--2--x-x-|--0--2--x-x-2--0--0--2--x-x-|
                                                        
----------------------------|--------------------------|
----------------------------|--------------------------|
----------------------------|--------------------------|
--2--4--x-x-4--2--2--4--x-x-|--2--4--x-x-4--2--2--4----|
--2--4--x-x-4--2--2--4--x-x-|--2--4--x-x-4--2--2--4----|
--0--2--x-x-2--0--0--2--x-x-|--0--2--x-x-2--0--0--2----|
                                                        
---------------------------|---------------------------|
---------------------------|---------------------------|
---------------------------|---------------------------|
---------------------------|---------------------------|
--7--9~---9~-------9---7h9-|--7--9~---9~-------9---7h9-|
-------------0--0----0-----|-------------0--0----0-----|
                                                                                
---------------------------|------------------------|--------------------------|
---------------------------|------------------------|--------------------------|
---------------------------|------------------------|-------------9--11--11----|
---------------------------|------------------------|--2--4----4---------------|
--7--9~---9~-------9---7h9-|--7--9~---9~-------9----|--2--4----4--7--9---9-----|
-------------0--0----0-----|-------------0--0-------|--0--2----2---------------|
  Yaz Dostum...                                                                            
------------------------|--------------------------|--------------------------|
------------------------|--------------------------|--------------------------|
------------------------|-------------9-7-6-7-6~---|-------------9--11--11----|
--2--4----4--2--2--4----|--2--4----4---------------|--2--4----4---------------|
--2--4----4--2--2--4----|--2--4----4---------------|--2--4----4--7--9---9-----|
--0--2----2--0--0--2----|--0--2----2---------------|--0--2----2---------------|
                                                      Yaz Dostum                  
------------------------|--------------------------|-------------------|
------------------------|--------------------------|-------------------|
------------------------|-------------9-7-6-7-6~---|--4----------------|
--2--4----4--2--2--4----|--2--4----4---------------|--4----------------|
--2--4----4--2--2--4----|--2--4----4---------------|-------------------|
--0--2----2--0--0--2----|--0--2----2---------------|-------------------|
  Boşa Geçmiş ......                                                                 
---------------------|------------------------|-------------------|
---------------------|------------------------|-------------------|
--6--------7----9----|------------------------|--4----------------|
--4--------5----7----|--2--4----4--2--2--4----|--4----------------|
--4--------5----7----|--2--4----4--2--2--4----|-------------------|
---------------------|--0--2----2--0--0--2----|-------------------|
                                                                        
---------------------|------------------------|------------------------|
---------------------|------------------------|------------------------|
--6--------7----9----|------------------------|------------------------|
--4--------5----7----|--2--4----4--2--2--4----|--2--4----4--2--2--4----|
--4--------5----7----|--2--4----4--2--2--4----|--2--4----4--2--2--4----|
---------------------|--0--2----2--0--0--2----|--0--2----2--0--0--2----|
Yaz Tahtaya Bir Daha....
                                                                
|-------------------------------|------------------------------|
|-------------------------------|------------------------------|
|*------------------------------|------------------------------|
|*----------------------4p0-----|----------------------4p0-----|
|---4---4-----4---4---------4p0-|--4---4-----4---4---------4p0-|
|---0h2-0h2---0h2-0h2-----------|--0h2-0h2---0h2-0h2-----------|
  Sarı çizmeli Mehmet Ağa...    Birgün öder Hesabı                                                            
             
------------------------------|-------------------------------||----|----|----|
------------------------------|-------------------------------||----|----|----|
--------------------x-x-x-4---|--------------------x-x-x-----*||----|----|----|
--4---4-4---4---4-4-x-x-x-4---|--------------------x-x-x-4---*||----|----|----|
--0h2-2-2---0h2-2-2-x-x-x-2---|--5---5-----4---4---x-x-x-4----||----|----|----|
------------------------------|--0h3-0h3---0h2-0h2-------2----||----|----|----|


Ekleyen : thewalkingdead

Henüz yorum yapılmamış
Yorum Yap

E-mail adresiniz gösterilmeyecektir. Lütfen * alanlarını boş geçmeyiniz.
Adınız *
Mail Adresiniz *

Web Site

Yorumunuz *