free hit counters

Pentagram - 1000 In The Eastland

Pentagram
Orj. Ton : -
Ritim : -
Metronom : -

1000 In The Eastland

Tab ekrana sığmıyorsa sağa doğru kaydırın

Giriş Melodi

E|-----------------------|---------------|-----------------------|-
B|-----------------------|---------------|-----------------------|-
G|-----------------------|---------------|-----------------------|-
D|---5-4-5-7-5-4---------|---4---4---4-5-|-7-5-4-5-7-5-4---------|-
A|-5-------------6-5-3-5-|-5---6---6-----|---------------6-5-3-5-|-
E|-----------------------|---------------|-----------------------|-

E|-----------------------|-------------------------|
B|-----------------------|-------------------------|
G|-----------------------|-------------------------|
D|---4---4-5-4-----------|---4-5-4-------4---------|
A|-5---6-------6-5-3-5-3-|-5-------6-5-6---6-5-3-5-|
E|-----------------------|-------------------------|


Ara Melodi

E|-----------------------------------------|-----------------------------------
B|-----------------------------------------|-----------------------------------
G|-----------------------------------------|-----------------------------------
D|--------7--5--7--3--5--3--5--7--3--------|--------7--5--7--3--5--7--3--7--5--
A|--3--5-----------------------------6--5--|--3--5-----------------------------
E|-----------------------------------------|-----------------------------------



E|--------------------------------------------------------------------------
B|--------------------------------------------------------------------------
G|--------------------------------------------------------------------------
D|--------7--5--7--3--5--3--5--7--3--------------3--2--3--2-----2-----------
A|--3--5-----------------------------6--5--3--5--------------5-----2--3--5--
E|--------------------------------------------------------------------------

Ekleyen : thewalkingdead

Henüz yorum yapılmamış
Yorum Yap

E-mail adresiniz gösterilmeyecektir. Lütfen * alanlarını boş geçmeyiniz.
Adınız *
Mail Adresiniz *

Web Site

Yorumunuz *