free hit counters

Pera - Kimseler

Pera
Orj. Ton : -
Ritim : -
Metronom : -

Kimseler

Tab ekrana sığmıyorsa sağa doğru kaydırın

KİMSELER


Tuning: D-G-C-F-A-D                    Söz-Müzik : Gökhan MANDIR

Verse


D --------1.------I -------O.-------I ------3.--------I -----0.---------I
A -----3----3-----I -----1----1-----I ----3----3------I ----1---1-------I
F ---2--------2---I ---2--------2-0-I --0--------0----I --2-------2.----I
C -0------------O-I ----------------I -------------0--I ----------------I  X2
G ----------------I -0--------------I ----------------I -3--------------I
D ----------------I ----------------I -3--------------I ----------------I



Chorus

Guitar-1

D -1--1--1--1--1--I -0--0--0--0--0--I -3--3--3--3--3--I -0--0--0--0--0--I
A -3--3--3--3--3--I -1--1--1--1--1--I -3--3--3--3--3--I -1--1--1--1--1--I
F -2--2--2--2--2--I -2--2--2--2--2--I -0--0--0--0--0--I -2--2--2--2--2--I 
C -0--0--0--0--0--I -2--2--2--2--2--I -0--0--0--0--0--I -3--3--3--3--3--I  X2
G -x--x--x--x--x--I -0--0--0--0--0--I -2--2--2--2--2--I -3--3--3--3--3--I
D -x--x--x--x--x--I -x--x--x--x--x--I -3--3--3--3--3--I -x--x--x--x--x--I

Guitar-2

D ----------------------------------------------------------------------I
A ----------------------------------------------------------------------I
F -7--7-7--9-10-10/12/9--9-9--7-9-----------------7---------------------I
C ---------------------------------10--9--9-9--10---9-9/7--7--5-5/7--7--I
G ----------------------------------------------------------------------I
D ----------------------------------------------------------------------I



Ritm

Guitar-1

D -1--1--1--1--1--I -0--0--0--0--0--I -3--3--3--3--3--I -0--0--0--0--0--I
A -3--3--3--3--3--I -1--1--1--1--1--I -3--3--3--3--3--I -1--1--1--1--1--I
F -2--2--2--2--2--I -2--2--2--2--2--I -0--0--0--0--0--I -2--2--2--2--2--I 
C -0--0--0--0--0--I -2--2--2--2--2--I -0--0--0--0--0--I -3--3--3--3--3--I  X2
G -x--x--x--x--x--I -0--0--0--0--0--I -2--2--2--2--2--I -3--3--3--3--3--I
D -x--x--x--x--x--I -x--x--x--x--x--I -3--3--3--3--3--I -x--x--x--x--x--I


Guitar-2

D ----------------------------------------------------------------------I
A ----------------------------------------------------------------------I
F -7--7-7--9-10-10/12/9--9-9--7-9-----------------7---------------------I
C ---------------------------------10--9--9-9--10---9-9/7--7--5-5/7--7--I
G ----------------------------------------------------------------------I
D ----------------------------------------------------------------------I


Verse


D --------1.------I -------O.-------I ------3.--------I -----0.---------I
A -----3----3-----I -----1----1-----I ----3----3------I ----1---1-------I
F ---2--------2---I ---2--------2-0-I --0--------0----I --2-------2.----I
C -0------------O-I ----------------I -------------0--I ----------------I  X2
G ----------------I -0--------------I ----------------I -3--------------I
D ----------------I ----------------I -3--------------I ----------------I



Chorus

Guitar-1

D -1--1--1--1--1--I -0--0--0--0--0--I -3--3--3--3--3--I -0--0--0--0--0--I
A -3--3--3--3--3--I -1--1--1--1--1--I -3--3--3--3--3--I -1--1--1--1--1--I
F -2--2--2--2--2--I -2--2--2--2--2--I -0--0--0--0--0--I -2--2--2--2--2--I 
C -0--0--0--0--0--I -2--2--2--2--2--I -0--0--0--0--0--I -3--3--3--3--3--I  X2
G -x--x--x--x--x--I -0--0--0--0--0--I -2--2--2--2--2--I -3--3--3--3--3--I
D -x--x--x--x--x--I -x--x--x--x--x--I -3--3--3--3--3--I -x--x--x--x--x--I

Guitar-2

D ----------------------------------------------------------------------I
A ----------------------------------------------------------------------I
F -7--7-7--9-10-10/12/9--9-9--7-9-----------------7---------------------I
C ---------------------------------10--9--9-9--10---9-9/7--7--5-5/7--7--I
G ----------------------------------------------------------------------I
D ----------------------------------------------------------------------I




Final

D -------------------------0--I
A -----1..-----3..-----1..-1--I
F ---2-------0-------2-----2--I
C -------------------------3--I
G -0---------------3-------3--I
D ---------3---------------x--I
         

Ekleyen : thewalkingdead

  • Şarkıyı Dinle - Player şarkıyı çalmıyorsa Youtube üzerinden dinlemek için tıklayınız

  • Henüz yorum yapılmamış
    Yorum Yap

    E-mail adresiniz gösterilmeyecektir. Lütfen * alanlarını boş geçmeyiniz.
    Adınız *
    Mail Adresiniz *

    Web Site

    Yorumunuz *