free hit counters

İrem Derici - Kalbimin Tek Sahibine

İrem Derici
Orj. Ton : -
Ritim : -
Metronom : -

Kalbimin Tek Sahibine

Tab ekrana sığmıyorsa sağa doğru kaydırın

dualar...       mutlu...  
|-------------5|-------4-----4-|)
|-5-5-5-7-5----|-7-7-7---7-5---|)
|-----------7--|---------------|)   x2
|--------------|---------------|)
|--------------|---------------|)
|--------------|---------------|)
sen varsan...   huzurla...

çok şükür...   seni bana...
|-------------|---------------|
|-5-----5-----|-5-5-5-7-5---7-|
|---7-6---7-6-|-----------7---|
|-------------|---------------|
|-------------|---------------|
|-------------|---------------|

yazmasın tek günümü sensiz kadere
|---------------|--------------|
|--------------5|-7-5-7-5------|
|-7-6-4--7-6-4--|----------7-6-|
|---------------|--------------|
|---------------|--------------|
|---------------|--------------|

ellerimiz bir gönüllerimiz bir
|----------5-|-----------4-|
|-7-7-7--7---|-5-7-5-7-5---|
|------------|-------------|
|------------|-------------|
|------------|-------------|
|------------|-------------|

vedalar denizler engeldir sevene
|---------------------------|
|-5-----7-5---7-5-7-5-------|
|---7-6-----7---------7-7-6-|
|---------------------------|
|---------------------------|
|---------------------------|

bu şarkı kalbimin tek sahibine
|--------------------4-5-|
|-5-5-5-7-5----7-7-7-----|
|------------7-----------|
|------------------------|
|------------------------|
|------------------------|

ömürlük yarime     gönül eşime
|-----------------|--------4-5-|
|-5-5-5-7--7-5----|-7-7-7------|
|--------------7--|------------|
|-----------------|------------|
|-----------------|------------|
|-----------------|------------|

bahar...        gülüşün...
|--------------|--------4-5-|
|-5-5-5-7-5----|-7-7-7------|
|------------7-|------------|
|--------------|------------|
|--------------|------------|
|--------------|------------|

melekler...
|--------------------------|
|-5-5-5-7-5----7-5-7-5-----|
|-----------7----------7-6-|
|--------------------------|
|--------------------------|
|--------------------------|

Ekleyen : alis

  • Şarkıyı Dinle - Player şarkıyı çalmıyorsa Youtube üzerinden dinlemek için tıklayınız

  • Henüz yorum yapılmamış
    Yorum Yap

    E-mail adresiniz gösterilmeyecektir. Lütfen * alanlarını boş geçmeyiniz.
    Adınız *
    Mail Adresiniz *

    Web Site

    Yorumunuz *