free hit counters

Badem - Sen Ağlama

Badem
Orj. Ton : -
Ritim : -
Metronom : -

Sen Ağlama

Tab ekrana sığmıyorsa sağa doğru kaydırın

01:58
E||---------------------------------------------------|
B||---------------------------------------------------|
G||---------------------------------------------------|
D||--------4-6-7-6-4---4--------4---------------------|
A||--4-6-7-----------7---7-6-7----7-6-6-7-7-6-4-----4-|
E||----------------------------------------------7-7--|

02:04

-------------------4---------4-7-5-4---------------------------
---------------5-7---7-5-7------------7-5-4-----4-5-----4-5-7--
-----------4-6--------------------------------6------6---------
-------4-6-----------------------------------------------------
--4-7----------------------------------------------------------
-7-------------------------------------------------------------

02:14

------------------------------------------
-5-4-5-7-5-4-5-4--------------------------
-------------------6-4-6-4----------------
----------------------------7-6-4---------
----------------------------------7-6-7---
------------------------------------------

--------------------4--------7-5-4---------------
----------------5-7---7-5-7---------7-5-4-------
-----------4-6---------------------------6-5-6-
-------4-6-------------------------------------
--4-7-------------------------------------------
-7---------------------------------------------

Ekleyen : thewalkingdead

  • Şarkıyı Dinle - Player şarkıyı çalmıyorsa Youtube üzerinden dinlemek için tıklayınız

  • Henüz yorum yapılmamış
    Yorum Yap

    E-mail adresiniz gösterilmeyecektir. Lütfen * alanlarını boş geçmeyiniz.
    Adınız *
    Mail Adresiniz *

    Web Site

    Yorumunuz *