free hit counters

Model - Değmesin Ellerimiz

Model
Orj. Ton : -
Ritim : -
Metronom : -

Değmesin Ellerimiz

Tab ekrana sığmıyorsa sağa doğru kaydırın

Model - Değmesin Ellerimiz Gitar Tabı        
e----------------------------------------------------------------------------
B----------------------------------------------------------------------------
G-------7-5------------------------------------------------------------------
D-5---5-----8-7-8-8/10-8\7-7-8-10----7---7--10-8-7--8p7----------5-----------
A---5----------------------------------8----------------10-5-7-8-------------
E----------------------------------------------------------------------------

e----------------------------------------------------------------------------
B----------------------------------------------------------------------------
G-------7-5-----------------------------------------------9--9-12-10h12p10-9-
D-5---5-----8-7-8-8/10-8\7-7-8-10----7---7--10-8h10p8-7----10----------------
A---5----------------------------------8-------------------------------------
E---------------------------------------------------------------------------

 

Ekleyen : thewalkingdead

  • Şarkıyı Dinle - Player şarkıyı çalmıyorsa Youtube üzerinden dinlemek için tıklayınız

  • Henüz yorum yapılmamış
    Yorum Yap

    E-mail adresiniz gösterilmeyecektir. Lütfen * alanlarını boş geçmeyiniz.
    Adınız *
    Mail Adresiniz *

    Web Site

    Yorumunuz *