free hit counters

Mor Ve Ötesi - Aşk İçinde

Mor Ve Ötesi
Orj. Ton : -
Ritim : -
Metronom : -

Aşk İçinde

Tab ekrana sığmıyorsa sağa doğru kaydırın

Giriş:

e----------------------------------------------------------0------
b-------3----------------2----------------3------------------3----
g-----0---0---0--------0---0---0--------0---0---0--------0--------
d---4-------4--------4-------4--------4-------4--------4----------
a------------------0----------------2----------------0------------
e-3---------------------------------------------------------------

e--------0--------------------------------------------------------------
b----------2-------------3-------------2------------------3-------------
g-----0------0---------0---0---0-----0---0---0----------0--0---0--------
d---4----------4-----4-------4-----4-------4----------4------4----------
a-0-------------------------------------------------2---------------0---
e-----------------3--------------2--------------------------------------

e--2---2-0-0-0------
b--3---3-2-0-2------
g--4---4-4-4-4------
d--4---4-4-4-4------
a-------------------
e-------------------

solo:

Bm        A   G       F#    Bm        A  G    F#
-----------------------------------------------------|
-----------------------------------------------------|
-----------------------------------------------------|
------------------------------------------4-2--------|
--4h5p4-2-4-5---4h5p4-2-4--2--4h5p4-2-4-5-----5-4-2--|
-----------------------------------------------------|

 

Ekleyen : thewalkingdead

  • Şarkıyı Dinle - Player şarkıyı çalmıyorsa Youtube üzerinden dinlemek için tıklayınız

  • Henüz yorum yapılmamış
    Yorum Yap

    E-mail adresiniz gösterilmeyecektir. Lütfen * alanlarını boş geçmeyiniz.
    Adınız *
    Mail Adresiniz *

    Web Site

    Yorumunuz *