free hit counters

Duman - Melankoli

Duman
Orj. Ton : -
Ritim : -
Metronom : -

Melankoli

Tab ekrana sığmıyorsa sağa doğru kaydırın

İntro Gitar Arpej
E|------------------------------------|---------------------------------
B|------------------------------------|---------------------------------
G|------10--------9-------7-------5---|-----4-------4-------4-------4---
D|---10----10---9---9---7---7---5---5-|---5---5---5---5---5---5---5---5-
A|-0----------0-------0-------0-------|-0-------0-------0-------0-------
E|------------------------------------|---------------------------------

Özledim Seni Harbiden
E|------------------------------------
B|------------------------------------
G|------10--------9-------7-------5---
D|---10----10---9---9---7---7---5---5-
A|-0----------0-------0-------0-------
E|------------------------------------

Aklıma da düşüverir aniden
E|------------------------------------
B|------------------------------------
G|------10--------9-------7-------5---
D|---10----10---9---9---7---7---5---5-
A|-0----------0-------0-------0-------
E|------------------------------------

İçince açılınca
E|---------------------------------
B|---------------------------------
G|-----4-------4-------4-------4---
D|---5---5---5---5---5---5---5---5-
A|-0-------0-------0-------0-------
E|---------------------------------

 

Ekleyen : thewalkingdead

  • Şarkıyı Dinle - Player şarkıyı çalmıyorsa Youtube üzerinden dinlemek için tıklayınız

  • Henüz yorum yapılmamış
    Yorum Yap

    E-mail adresiniz gösterilmeyecektir. Lütfen * alanlarını boş geçmeyiniz.
    Adınız *
    Mail Adresiniz *

    Web Site

    Yorumunuz *