free hit counters

Düş Sokağı Sakinleri - Hüzün Kovan Kuşu

Düş Sokağı Sakinleri
Orj. Ton : -
Ritim : -
Metronom : -

Hüzün Kovan Kuşu

Tab ekrana sığmıyorsa sağa doğru kaydırın

Giriş - Arpej
E|-----0-------------|-------0---------|-
B|---0---0---0-----0-|-----0---0---0---|-
G|-2-------2---1h2---|-1h2-------2---1-|-
D|-------------------|-----------------|-
A|-------------------|-----------------|-
E|-------------------|-----------------|-

Vokal Altı 
  C#m    G#m   A     E
E|-------------------------|-
B|-5---5-4---4-2---2-0---0-|-
G|---6-----4-----2-----1---|-
D|-------------------------|-
A|-------------------------|-
E|-------------------------|-

Ekleyen : thewalkingdead

  • Şarkıyı Dinle - Player şarkıyı çalmıyorsa Youtube üzerinden dinlemek için tıklayınız

  • Henüz yorum yapılmamış
    Yorum Yap

    E-mail adresiniz gösterilmeyecektir. Lütfen * alanlarını boş geçmeyiniz.
    Adınız *
    Mail Adresiniz *

    Web Site

    Yorumunuz *