free hit counters

Düş Sokağı Sakinleri - Ölümler

Düş Sokağı Sakinleri
Orj. Ton : -
Ritim : -
Metronom : -

Ölümler

Tab ekrana sığmıyorsa sağa doğru kaydırın

(Em)
E|---------------------|---------------------|
B|---------------------|---------------------|
G|-------------------0-|---------------------|
D|-----2-------2-------|-----2-------2-----0-|
A|---2---2---2---2-----|---2---2---2---2-----|
E|-0-------0-------0---|-0-------0-------0---|

(Am)
E|---------------------|
B|-------------------1-|
G|-----2-------2-------|
D|---2---2---2---2-----|
A|-0-------0-------0---|
E|---------------------|

Ekleyen : thewalkingdead

  • Şarkıyı Dinle - Player şarkıyı çalmıyorsa Youtube üzerinden dinlemek için tıklayınız

  • Henüz yorum yapılmamış
    Yorum Yap

    E-mail adresiniz gösterilmeyecektir. Lütfen * alanlarını boş geçmeyiniz.
    Adınız *
    Mail Adresiniz *

    Web Site

    Yorumunuz *