free hit counters

Majeste - Aşk Dediğin

Majeste
Orj. Ton : Bbm (Si Bemol Minör)
Ritim : 6/8
Metronom : 163

Aşk Dediğin

Tab ekrana sığmıyorsa sağa doğru kaydırın

Gitar Giriş Solo

B|-------7-6h7p6-4-6-----------|-------7-6h7p6-4-6---6-4-4-|
G|-3-4-3-------------6-4-4-3---|-3-4-3-------------6-------|
D|---------------------------6-|---------------------------|
A|-----------------------------|---------------------------|
E|-----------------------------|---------------------------|


E|-----------------------------|-------------------------|
B|-------7-6h7p6-4-6-----4-----|-------7-6h7p6-4-6---6-4-|
G|-3-4-3-------------6-6---6-4-|-3-4-3-------------6-----|
D|-----------------------------|-------------------------|
A|-----------------------------|-------------------------|
E|-----------------------------|-------------------------|

Ekleyen : thewalkingdead

  • Şarkıyı Dinle - Player şarkıyı çalmıyorsa Youtube üzerinden dinlemek için tıklayınız

  • 1 Yorum
    Hb 14.05.2016 - 11:41:15

    Ana soloyu da yazabilir misiniz

    Yorum Yap

    E-mail adresiniz gösterilmeyecektir. Lütfen * alanlarını boş geçmeyiniz.
    Adınız *
    Mail Adresiniz *

    Web Site

    Yorumunuz *