free hit counters

Fikret Kızılok - Zaman Zaman

Fikret Kızılok
Orj. Ton : -
Ritim : -
Metronom : -

Zaman Zaman

Tab ekrana sığmıyorsa sağa doğru kaydırın

Gitar giriş 

E|-----------------|-------------------|-----------------|---------------------|
B|-----------------|-------------------|-----------------|---------------------|
G|-----------------|-------------------|-----------------|-----------------2-4-|
D|-0-2-0-2-4-5-4-5-|-4-5-7-5-4-2-0-2-0-|-0-2-0-2-4-5-4-5-|-4-5-7-5-4-2-4-5-----|
A|-----------------|-------------------|-----------------|---------------------|
E|-----------------|-------------------|-----------------|---------------------|



E|-----------------------|-----------------------|
B|---5-5-5-3-------------|-----------------------|
G|-2---------5-4-2-0-4-2-|-------2-----------2-4-|
D|-----------------------|-5-4-5---5-4-2-4-5-----|
A|-----------------------|-----------------------|
E|-----------------------|-----------------------|



E|-----------------------|---------------|
B|---5-5-5-3-------------|-------3-------|
G|-2---------5-4-2-0-4-2-|-5-4-5---5-4-2-|
D|-----------------------|---------------|
A|-----------------------|---------------|
E|-----------------------|---------------|

Ekleyen : thewalkingdead

  • Şarkıyı Dinle - Player şarkıyı çalmıyorsa Youtube üzerinden dinlemek için tıklayınız

  • Henüz yorum yapılmamış
    Yorum Yap

    E-mail adresiniz gösterilmeyecektir. Lütfen * alanlarını boş geçmeyiniz.
    Adınız *
    Mail Adresiniz *

    Web Site

    Yorumunuz *