free hit counters

Edip Akbayram - Merdo

Edip Akbayram
Orj. Ton : -
Ritim : -
Metronom : -

Merdo

Tab ekrana sığmıyorsa sağa doğru kaydırın

Stave 1:

E|-----------------------------------|--------------------------------------|
B|--6--5-----5-----------------------|--5-----------------------------------|
G|--------7-----7--6--7--6-----6--7--|-----7--6--7--6-----6-----7--6--------|
D|--------------------------8--------|-----------------8-----8--------8--7--|
A|-----------------------------------|--------------------------------------|
E|-----------------------------------|--------------------------------------|

Stave 2:

E|--------------------------------------
B|--------------------6--5-----5--------
G|--------6--7--6--7--------7-----6--7--
D|--7--8--------------------------------
A|--------------------------------------
E|--------------------------------------

Ekleyen : thewalkingdead

  • Şarkıyı Dinle - Player şarkıyı çalmıyorsa Youtube üzerinden dinlemek için tıklayınız

  • Henüz yorum yapılmamış
    Yorum Yap

    E-mail adresiniz gösterilmeyecektir. Lütfen * alanlarını boş geçmeyiniz.
    Adınız *
    Mail Adresiniz *

    Web Site

    Yorumunuz *