free hit counters

Duman - Aman Aman

Duman
Orj. Ton : -
Ritim : -
Metronom : -

Aman Aman

Tab ekrana sığmıyorsa sağa doğru kaydırın

 F#m                              E
  1 x 2 x 3 x 4 x 5 x 6 x 7 x 8 x  1 x 2 x 3 x 4 x 5 x 6 x 7 x 8 x 
e|--------------------------------|--------------------------------|
B|--------2---2---2---3--2h3p2----|--------0---0---0---2--0h2p0----|
G|--------2-------------------4---|--------1-------------------2---|
D|--------4-----------------------|--------2-----------------------|
A|4-------4-----------------------|2-------2-----------------------|
E|2-------2-----------------------|0-------0-----------------------|


  F#m                              E
  1 x 2 x 3 x 4 x 5 x 6 x 7 x 8 x  1 x 2 x 3 x 4 x 5 x 6 x 7 x 8 x 
e|--------------------------------|--------------------------------|
B|--------2---2---2---3--2h3p2----|--------------------------------|
G|--------2-------------------4---|1-----------1-1-1---2--1h2p1----|
D|--------4-----------------------|2---------------------------4---|
A|4-------4-----------------------|2-------------------------------|
E|2-------2-----------------------|0-------------------------------|


  F#m                              E
  1 x 2 x 3 x 4 x 5 x 6 x 7 x 8 x  1 x 2 x 3 x 4 x 5 x 6 x 7 x 8 x 
e|--------------------------------|--------0---0---0---2--0h2p0----|
B|--------2---2---2---3--2h3p2----|----------------------------2---|
G|--------2-------------------4---|--------1-----------------------|
D|--------4-----------------------|--------2-----------------------|
A|4-------4-----------------------|2-------2-----------------------|
E|2-------2-----------------------|0-------0-----------------------|


  F#m                              E
  1 x 2 x 3 x 4 x 5 x 6 x 7 x 8 x  1 x 2 x 3 x 4 x 5 x 6 x 7 x 8 x 
e|--------------------------------|--------------------------------|
B|--------2---2---2---3--2h3p2----|--------------------------------|
G|--------2-------------------4---|------------1-1-1---2--1h2p1----|
D|--------4-----------------------|4---------------------------4---|
A|4-------4-----------------------|--------------------------------|
E|2-------2-----------------------|--------------------------------|
                                   pm..............................      

 

*(pre chorus chords)
   
  1 x 2 x 3 x 4 x 5 x 6 x 7 x 8 x  1 x 2 x 3 x 4 x 5 x 6 x 7 x 8 x 
e|--------------------------------|--------------------------------|
B|--------------------------------|--------------------------------|
G|--------------------------------|------------1-1-1---2--1h2p1----|
D|4---4---4---4---4---4---4---2---|----------------------------4---|
A|4---4---4---4---4---4---4---2---|--------------------------------|
E|2---2---2---2---2---2---2---0---|--------------------------------|
  pm...........................                pm..................


  1 x 2 x 3 x 4 x 5 x 6 x 7 x 8 x  1 x 2 x 3 x 4 x 5 x 6 x 7 x 8 x 
e|--------------------------------|--------------------------------|
B|--------------------------------|--------------------------------|
G|--------------------------------|------------------------1---2---|
D|4---4---4---4---4---4---4---2---|------------2-2-2---4-----------|
A|4---4---4---4---4---4---4---2---|--------------------------------|
E|2---2---2---2---2---2---2---0---|--------------------------------|
  pm...........................                pm..................

Ekleyen : thewalkingdead

  • Şarkıyı Dinle - Player şarkıyı çalmıyorsa Youtube üzerinden dinlemek için tıklayınız

  • Henüz yorum yapılmamış
    Yorum Yap

    E-mail adresiniz gösterilmeyecektir. Lütfen * alanlarını boş geçmeyiniz.
    Adınız *
    Mail Adresiniz *

    Web Site

    Yorumunuz *