free hit counters

Mor Ve Ötesi - Yaz Yaz

Mor Ve Ötesi
Orj. Ton : -
Ritim : -
Metronom : -

Yaz Yaz

Tab ekrana sığmıyorsa sağa doğru kaydırın

intro :

 E -----------------------------------------------------------------
B ---------------------------------5-5-----------------------------
G -5-5-4-4-5-5-------------------------4-4-5-5---------------------
D -------------7---x-7-x-x-7-7-7----------------7---x-7-x-x-7-7-7--
A -------------7---x-7-x-x-7-7-7----------------5---x-5-x-x-5-5-5--
E -----------------------------------------------------------------

 E -----------------------------------------------------7------12---
B ------------------------------------------9------------9---------
G -7-7-5-5-7-7---------------------------------9-----------9-------
D -------------5---x-5-x-x-5-5-5--------9---------9----------------
A -------------5---x-5-x-x-5-5-5------7----------------------------
E -----------------------------------------------------------------

 Am                             Dsus2
Neden senle hiç durmadan tartışıp duruyoruz ki biz
Am                         Dsus2
Bile bile üstüme gelmene ne gerek var

 E --------1--------------------------0---------------
B ------3----------------------1-0-1-----------------
G ----2----------------------------------------------
D --0------------------------2-----------------------
A -------------------------0-------------------------
E ---------------------------------------------------
   Neden dostça ve insanca ayrılamıyoruz ki biz

 E ------2------2----------------------0--------------
B --------0---(0)------------------------------------
G ----------2-----------------------1---1------------
D --------------------------------2------------------
A ----2-------------------------2--------------------
E ---------------------------------------------------
   Ve bunca yaşanmış yılların da hatırı var

 E -----------------------------------------------------
B -----------------------------------------------------
G --7-5---7-7-7--5h7-5h7-------------------------------
D --7-7---7-7-7--7-7-7-7--------7-5---7-7-7--5h7-5h7---
A ------------------------------7-7---7-7-7--7-7-7-7---
E -----------------------------------------------------                   
    Eğer hergün bu işkence      eğer her gün bu karmaşa

 E -------------------------------------------0-----------
B ------------------------------------0------------------
G --------------------------------------1----------------
D ---5-3---5-5-5--3h5-3h5-----------2-----2--------------
A ---5-5---5-5-5--5-5-5-5--------------------------------
E -----------------------------0-0-------------0-0-0-0---
   Eğer her gün bu kavgaya katlanırım sanıyorsan

 nakarat: 

 E --------------------------------------------------------------
B --------------------------------------------------------------
G ---2---4---5--5-5-5-5-5-5-5-5-5-5-5-5-4-4-4-4-4-4-4-4-4-4-4-4-
D ---2---2---2--2-2-2-2-2-2-2-2-2-2-2-2-5-5-5-5-5-5-5-5-5-5-5-5-
A ---0---0---0--0-0-0-0-0-0-0-0-0-0-0-0-5-5-5-5-5-5-5-5-5-5-5-5-
E --------------------------------------------------------------
     Sen de yaz  yaz yaz bir kenara yaz    bütün sözlerimi

 E --------------------------------------------------------------
B --------------------------------------------------------------
G ---1-1-1-1-1-1-1-1-1-1-1-1-1-------2-2-2-2--4-2-2-5-----------
D ---2-2-2-2-2-2-2-2-2-2-2-2-2-------2-2-2-2--2-2-2-2-----------
A ---2-2-2-2-2-2-2-2-2-2-2-2-2-------0-0-0-0--0-0-0-0-----------
E ---0-0-0-0-0-0-0-0-0-0-0-0-0----------------------------------
        Yanılırsam çık karşıma       göster kendini

 Belki zamanla teker teker silinirler aklından
Anlarsın ki boşuna geçmiş bunca zaman

 interlude & outro :

 E --------------------------------------------------------
B --------13------------12-----------10---------9---------
G -----------12------------12----------10---------7-------
D -----14------------12-----------10----------9-----------
A --12------------10------------8-----------7-------------
E --------------------------------------------------------

 E -----------7--------------------------------------------
B -------7-------10------9---7---9---10-------------------
G -----8---8---8----8------8---8---8----------------------
D ---9----------------------------------------------------
A --------------------------------------------------------
E --------------------------------------------------------

 E --------------------------------------------------------
B --------13------------12-----------10---------9---------
G -----------12------------12----------10---------7-------
D -----14------------12-----------10----------9-----------
A --12------------10------------8-----------7-------------
E --------------------------------------------------------
 

 E -----------------------------7--------------------------
B -------7---9---10---9---10------------------------------
G -----8---8---8----8---8----8----------------------------
D ---9----------------------------------------------------
A --------------------------------------------------------
E --------------------------------------------------------

 solo :

 E -------------------------------------------------------------
B ----------------------13-12----------------------------------
G ---------------14-----------14-14----------------------------
D ------------14--------------------15-----14-15-14-12---------
A ---12-12-15------------------------------------------15------
E -------------------------------------------------------------

 E -------------------------------------------------------------
B -------------------------------------------------------------
G --12--12-----------------------------------------------------
D ---------15-14h15-14-12-14----12-----------------------------
A ---------------------------------15-14-12-11-12---11---------
E ------------------------------------------------------13--12-

 E -------12----12----12----------------------------------------
B ----13----12----13----12-13-15-15b17r15-13-12----------------
G -------------------------------------------------------------
D -------------------------------------------------------------
A -------------------------------------------------------------
E -------------------------------------------------------------

 E -----13----13----13-----------15b17r15-13-12-----------------
B --13----12----13-----12-13-15--------------------------------
G -------------------------------------------------------------
D -------------------------------------------------------------
A -------------------------------------------------------------
E -------------------------------------------------------------

 E ------13----13----13-12-13-15-17b19r17-16-13-----------------
B ---15----13----15--------------------------------------------
G -------------------------------------------------------------
D -------------------------------------------------------------
A -------------------------------------------------------------
E -------------------------------------------------------------

 E -----13---13----13----13---12---12---12----12----12----------
B --17---15----13----12----12---10----9----10---12-------------
G ---------------------------------------------------2--------
D -------------------------------------------------------------
A -------------------------------------------------------------
E -------------------------------------------------------------


interlude & outro >>>
Am G F E
|--------------------------|---------------------|
|-------13----------12-----|------10--------9----|
|----------14----------12--|---------10-------7--|
|----14----------12--------|---10---------9------|
|-12----------10----------|-8----------7-------|
|--------------------------|----------------------|

B7 E
|-----------7-------- |---------------7------|
|-------7-------10---|-10---9---10-----------|
|-----8---8---8----8-|----8---8----8---------|
|--9------------------|----------------------|
|----------------------|---------------------|
|----------------------|---------------------|

Am G F E
|---------------------------|---------------------|
|-------13----------12----|------10--------9------|
|----------14----------12-|---------10-------7----|
|----14----------12-------|---10---------9--------|
|-12----------10----------|-8----------7----------|
|---------------------------|---------------------|

B7 E
|----------------------|-------------7----|
|-------7---9---10----|-9----10-----------|
|-----8---8---8----8--|----8----8---------|
|--9-------------------|------------------|
|----------------------|------------------|
|----------------------|------------------| 

Ekleyen : thewalkingdead

  • Şarkıyı Dinle - Player şarkıyı çalmıyorsa Youtube üzerinden dinlemek için tıklayınız

  • Henüz yorum yapılmamış
    Yorum Yap

    E-mail adresiniz gösterilmeyecektir. Lütfen * alanlarını boş geçmeyiniz.
    Adınız *
    Mail Adresiniz *

    Web Site

    Yorumunuz *