free hit counters

Yüksek Sadakat - Haydi Gel İçelim

Yüksek Sadakat
Orj. Ton : -
Ritim : -
Metronom : -

Haydi Gel İçelim

Tab ekrana sığmıyorsa sağa doğru kaydırın

Gitar giriş ritmi

Bu gün            Çok yorulmuşsan          Her yerde arayıp
    Dm                         A                         Dm
E|--5--5--5--5--5--5--5--5--|--5--5--5--5--5--5--5--5--|--5--5--5--5--
B|--6--6--6--6--6--6--6--6--|--5--5--5--5--5--5--5--5--|--6--6--6--6--
G|--7--7--7--7--7--7--7--7--|--6--6--6--6--6--6--6--6--|--7--7--7--7--
D|--------------------------|--------------------------|--------------
A|--------------------------|--------------------------|--------------
E|--------------------------|--------------------------|--------------

   Yine de bulamamışsan        O seni unutmuş           Sen unutamamışsan
                  A                       Gm                        A
E|--5--5--5--5--|-5--5--5--5--5--5--5--5-|-3--3--3--3--3--3--3--3-|-5--5--5--5
B|--6--6--6--6--|-5--5--5--5--5--5--5--5-|-3--3--3--3--3--3--3--3-|-5--5--5--5
G|--7--7--7--7--|-6--6--6--6--6--6--6--6-|-3--3--3--3--3--3--3--3-|-6--6--6--6
D|--------------|------------------------|------------------------|-----------
A|--------------|------------------------|------------------------|-----------
E|--------------|------------------------|------------------------|-----------

Kalbinin kuşu uçmuş            Sen tutamamışsan         
                 Gm                        A                      
E|--5--5--5--5--|-3--3--3--3--3--3--3--3-|-5--5--5--5--5-|
B|--5--5--5--5--|-3--3--3--3--3--3--3--3-|-5--5--5--5--5-|
G|--6--6--6--6--|-3--3--3--3--3--3--3--3-|-6--6--6--6--6-|
D|--------------|------------------------|---------------|
A|--------------|------------------------|---------------|
E|--------------|------------------------|---------------|

Ara Solo

E|--------------------6--5-----------5---------------|
B|--3--5--6--5--6--8--------8--6--8-----8--6--5h6p5--|
G|---------------------------------------------------|
D|---------------------------------------------------|
A|---------------------------------------------------|
E|---------------------------------------------------|

E|------------------------------10--9--10------9-------------------------
B|--3--5--6--5--6--8--6--8--10-------------11-----11--10--11--10--8--10--
G|-----------------------------------------------------------------------
D|-----------------------------------------------------------------------
A|-----------------------------------------------------------------------
E|-----------------------------------------------------------------------

E|------------------------------|---------------------------------
B|-----------6--5--6--8--10--8--|-----------6--5h6p5h6p5h6p5h6p5--
G|--3--5--7---------------------|--3--5--7------------------------
D|------------------------------|---------------------------------
A|------------------------------|---------------------------------
E|------------------------------|---------------------------------


Gitar Final Riff



E|------------------------
B|------------------------
G|------------------------
D|--9--7------------------
A|--------9--8--7---------
E|-----------------10--7--

Ekleyen : TemreG

  • Şarkıyı Dinle - Player şarkıyı çalmıyorsa Youtube üzerinden dinlemek için tıklayınız

  • 1 Yorum
    Gitar Mitar 27.04.2015 - 09:06:36

    Nakarat\'i unutmussunuz.

    Yorum Yap

    E-mail adresiniz gösterilmeyecektir. Lütfen * alanlarını boş geçmeyiniz.
    Adınız *
    Mail Adresiniz *

    Web Site

    Yorumunuz *