free hit counters

Haluk Levent - Dağlar Mı Yollar Mı

Haluk Levent
Orj. Ton : -
Ritim : -
Metronom : -

Dağlar Mı Yollar Mı

Tab ekrana sığmıyorsa sağa doğru kaydırın

Giriş Solosu

E|-----------------|-------|------------------------|----------------
B|-----------------|-------|-10-8-10-11-13-11-10-11-|-13-13-11-11-10-
G|-2-0-2-3-5-3-2-3-|-5-3-2-|------------------------|----------------
D|-----------------|-------|------------------------|----------------
A|-----------------|-------|------------------------|----------------
E|-----------------|-------|------------------------|----------------


Ara Solo

E|---------------|-----------------------------------|
B|---------------|------10------------10-------------|
G|-----------7-9-|-10-9----12-10-10-9----12-10h12-10-|
D|----7-8-10-----|-----------------------------------|
A|-10------------|-----------------------------------|
E|---------------|-----------------------------------|

E|------------|-----------------|---------------|---------------
B|-----8------|-----8-----------|-----6-5h6p5---|-----6-5h6p5---
G|-9-7---10-9-|-9-7---10-9h10-9-|-7-5---------7-|-7-5---------7-
D|------------|-----------------|---------------|---------------
A|------------|-----------------|---------------|---------------
E|------------|-----------------|---------------|---------------


E|-----8-6-8-6-5-|
B|---8-----------|
G|-5-------------|
D|---------------|
A|---------------|
E|---------------|

Ekleyen : TemreG

  • Şarkıyı Dinle - Player şarkıyı çalmıyorsa Youtube üzerinden dinlemek için tıklayınız

  • Henüz yorum yapılmamış
    Yorum Yap

    E-mail adresiniz gösterilmeyecektir. Lütfen * alanlarını boş geçmeyiniz.
    Adınız *
    Mail Adresiniz *

    Web Site

    Yorumunuz *